ISO-10303-21;
HEADER;
/* Generated by software containing ST-Developer
 * from STEP Tools, Inc. (www.steptools.com) 
 */

FILE_DESCRIPTION(
/* description */ (
'CRCW-0805-HP e3                               CAD-model for customers'),

/* implementation_level */ '2;1');

FILE_NAME(
/* name */ 'C:\\temp\\Productstream-Daten\\Siebe\\4149.stp',
/* time_stamp */ '2016-11-25T13:41:58+01:00',
/* author */ ('tmichling'),
/* organization */ (''),
/* preprocessor_version */ 'ST-DEVELOPER v16.1',
/* originating_system */ 'Autodesk Inventor 2016',
/* authorisation */ '');

FILE_SCHEMA (('AUTOMOTIVE_DESIGN { 1 0 10303 214 3 1 1 }'));
ENDSEC;

DATA;
#10=MECHANICAL_DESIGN_GEOMETRIC_PRESENTATION_REPRESENTATION('',(#14,#21,
#16,#19,#20,#17,#15,#18),#442);
#11=SHAPE_REPRESENTATION_RELATIONSHIP('SRR','None',#451,#12);
#12=ADVANCED_BREP_SHAPE_REPRESENTATION('',(#13),#441);
#13=MANIFOLD_SOLID_BREP('Volumenk\X\F6rper1',#282);
#14=STYLED_ITEM('',(#461),#269);
#15=STYLED_ITEM('',(#461),#271);
#16=STYLED_ITEM('',(#461),#273);
#17=STYLED_ITEM('',(#461),#276);
#18=STYLED_ITEM('',(#461),#278);
#19=STYLED_ITEM('',(#461),#279);
#20=STYLED_ITEM('',(#462),#281);
#21=STYLED_ITEM('',(#460),#13);
#22=FACE_OUTER_BOUND('',#36,.T.);
#23=FACE_OUTER_BOUND('',#37,.T.);
#24=FACE_OUTER_BOUND('',#38,.T.);
#25=FACE_OUTER_BOUND('',#39,.T.);
#26=FACE_OUTER_BOUND('',#40,.T.);
#27=FACE_OUTER_BOUND('',#41,.T.);
#28=FACE_OUTER_BOUND('',#42,.T.);
#29=FACE_OUTER_BOUND('',#43,.T.);
#30=FACE_OUTER_BOUND('',#44,.T.);
#31=FACE_OUTER_BOUND('',#45,.T.);
#32=FACE_OUTER_BOUND('',#46,.T.);
#33=FACE_OUTER_BOUND('',#47,.T.);
#34=FACE_OUTER_BOUND('',#48,.T.);
#35=FACE_OUTER_BOUND('',#49,.T.);
#36=EDGE_LOOP('',(#182,#183,#184,#185));
#37=EDGE_LOOP('',(#186,#187,#188,#189));
#38=EDGE_LOOP('',(#190,#191,#192,#193));
#39=EDGE_LOOP('',(#194,#195,#196,#197));
#40=EDGE_LOOP('',(#198,#199,#200,#201));
#41=EDGE_LOOP('',(#202,#203,#204,#205));
#42=EDGE_LOOP('',(#206,#207,#208,#209,#210,#211,#212,#213,#214,#215,#216,
#217));
#43=EDGE_LOOP('',(#218,#219,#220,#221));
#44=EDGE_LOOP('',(#222,#223,#224,#225));
#45=EDGE_LOOP('',(#226,#227,#228,#229));
#46=EDGE_LOOP('',(#230,#231,#232,#233));
#47=EDGE_LOOP('',(#234,#235,#236,#237));
#48=EDGE_LOOP('',(#238,#239,#240,#241,#242,#243,#244,#245,#246,#247,#248,
#249));
#49=EDGE_LOOP('',(#250,#251,#252,#253));
#50=LINE('',#368,#86);
#51=LINE('',#370,#87);
#52=LINE('',#372,#88);
#53=LINE('',#373,#89);
#54=LINE('',#376,#90);
#55=LINE('',#378,#91);
#56=LINE('',#379,#92);
#57=LINE('',#383,#93);
#58=LINE('',#385,#94);
#59=LINE('',#387,#95);
#60=LINE('',#388,#96);
#61=LINE('',#391,#97);
#62=LINE('',#393,#98);
#63=LINE('',#394,#99);
#64=LINE('',#396,#100);
#65=LINE('',#397,#101);
#66=LINE('',#400,#102);
#67=LINE('',#402,#103);
#68=LINE('',#403,#104);
#69=LINE('',#406,#105);
#70=LINE('',#408,#106);
#71=LINE('',#410,#107);
#72=LINE('',#412,#108);
#73=LINE('',#414,#109);
#74=LINE('',#415,#110);
#75=LINE('',#418,#111);
#76=LINE('',#420,#112);
#77=LINE('',#421,#113);
#78=LINE('',#423,#114);
#79=LINE('',#426,#115);
#80=LINE('',#428,#116);
#81=LINE('',#429,#117);
#82=LINE('',#432,#118);
#83=LINE('',#433,#119);
#84=LINE('',#435,#120);
#85=LINE('',#437,#121);
#86=VECTOR('',#302,1.25);
#87=VECTOR('',#303,0.0001);
#88=VECTOR('',#304,1.25);
#89=VECTOR('',#305,0.0001);
#90=VECTOR('',#308,0.4);
#91=VECTOR('',#309,1.25);
#92=VECTOR('',#310,0.4);
#93=VECTOR('',#313,1.25);
#94=VECTOR('',#314,0.0001);
#95=VECTOR('',#315,1.25);
#96=VECTOR('',#316,0.0001);
#97=VECTOR('',#319,0.399999999999998);
#98=VECTOR('',#320,0.4);
#99=VECTOR('',#321,1.25);
#100=VECTOR('',#324,1.2);
#101=VECTOR('',#325,1.2);
#102=VECTOR('',#328,0.4998);
#103=VECTOR('',#329,1.25);
#104=VECTOR('',#330,0.4998);
#105=VECTOR('',#333,0.4998);
#106=VECTOR('',#334,0.349999999999998);
#107=VECTOR('',#335,0.000100000000000169);
#108=VECTOR('',#336,1.3);
#109=VECTOR('',#337,0.000100000000000031);
#110=VECTOR('',#338,0.350000000000001);
#111=VECTOR('',#341,1.25);
#112=VECTOR('',#342,1.25);
#113=VECTOR('',#343,0.000100000000000031);
#114=VECTOR('',#346,0.349999999999999);
#115=VECTOR('',#349,1.25);
#116=VECTOR('',#350,0.000100000000000169);
#117=VECTOR('',#351,1.25);
#118=VECTOR('',#354,0.349999999999999);
#119=VECTOR('',#355,1.25);
#120=VECTOR('',#358,0.4998);
#121=VECTOR('',#361,1.3);
#122=VERTEX_POINT('',#366);
#123=VERTEX_POINT('',#367);
#124=VERTEX_POINT('',#369);
#125=VERTEX_POINT('',#371);
#126=VERTEX_POINT('',#375);
#127=VERTEX_POINT('',#377);
#128=VERTEX_POINT('',#381);
#129=VERTEX_POINT('',#382);
#130=VERTEX_POINT('',#384);
#131=VERTEX_POINT('',#386);
#132=VERTEX_POINT('',#390);
#133=VERTEX_POINT('',#392);
#134=VERTEX_POINT('',#399);
#135=VERTEX_POINT('',#401);
#136=VERTEX_POINT('',#405);
#137=VERTEX_POINT('',#407);
#138=VERTEX_POINT('',#409);
#139=VERTEX_POINT('',#411);
#140=VERTEX_POINT('',#413);
#141=VERTEX_POINT('',#417);
#142=VERTEX_POINT('',#419);
#143=VERTEX_POINT('',#425);
#144=VERTEX_POINT('',#427);
#145=VERTEX_POINT('',#431);
#146=EDGE_CURVE('',#122,#123,#50,.T.);
#147=EDGE_CURVE('',#124,#122,#51,.T.);
#148=EDGE_CURVE('',#125,#124,#52,.T.);
#149=EDGE_CURVE('',#123,#125,#53,.T.);
#150=EDGE_CURVE('',#126,#123,#54,.T.);
#151=EDGE_CURVE('',#127,#126,#55,.T.);
#152=EDGE_CURVE('',#122,#127,#56,.T.);
#153=EDGE_CURVE('',#128,#129,#57,.T.);
#154=EDGE_CURVE('',#130,#128,#58,.T.);
#155=EDGE_CURVE('',#131,#130,#59,.T.);
#156=EDGE_CURVE('',#129,#131,#60,.T.);
#157=EDGE_CURVE('',#128,#132,#61,.T.);
#158=EDGE_CURVE('',#133,#129,#62,.T.);
#159=EDGE_CURVE('',#132,#133,#63,.T.);
#160=EDGE_CURVE('',#124,#131,#64,.T.);
#161=EDGE_CURVE('',#130,#125,#65,.T.);
#162=EDGE_CURVE('',#133,#134,#66,.T.);
#163=EDGE_CURVE('',#134,#135,#67,.T.);
#164=EDGE_CURVE('',#132,#135,#68,.T.);
#165=EDGE_CURVE('',#127,#136,#69,.T.);
#166=EDGE_CURVE('',#136,#137,#70,.T.);
#167=EDGE_CURVE('',#137,#138,#71,.T.);
#168=EDGE_CURVE('',#138,#139,#72,.T.);
#169=EDGE_CURVE('',#139,#140,#73,.T.);
#170=EDGE_CURVE('',#140,#134,#74,.T.);
#171=EDGE_CURVE('',#140,#141,#75,.T.);
#172=EDGE_CURVE('',#142,#139,#76,.T.);
#173=EDGE_CURVE('',#141,#142,#77,.T.);
#174=EDGE_CURVE('',#135,#141,#78,.T.);
#175=EDGE_CURVE('',#143,#137,#79,.T.);
#176=EDGE_CURVE('',#144,#143,#80,.T.);
#177=EDGE_CURVE('',#138,#144,#81,.T.);
#178=EDGE_CURVE('',#143,#145,#82,.T.);
#179=EDGE_CURVE('',#145,#136,#83,.T.);
#180=EDGE_CURVE('',#126,#145,#84,.T.);
#181=EDGE_CURVE('',#142,#144,#85,.T.);
#182=ORIENTED_EDGE('',*,*,#146,.F.);
#183=ORIENTED_EDGE('',*,*,#147,.F.);
#184=ORIENTED_EDGE('',*,*,#148,.F.);
#185=ORIENTED_EDGE('',*,*,#149,.F.);
#186=ORIENTED_EDGE('',*,*,#146,.T.);
#187=ORIENTED_EDGE('',*,*,#150,.F.);
#188=ORIENTED_EDGE('',*,*,#151,.F.);
#189=ORIENTED_EDGE('',*,*,#152,.F.);
#190=ORIENTED_EDGE('',*,*,#153,.F.);
#191=ORIENTED_EDGE('',*,*,#154,.F.);
#192=ORIENTED_EDGE('',*,*,#155,.F.);
#193=ORIENTED_EDGE('',*,*,#156,.F.);
#194=ORIENTED_EDGE('',*,*,#157,.F.);
#195=ORIENTED_EDGE('',*,*,#153,.T.);
#196=ORIENTED_EDGE('',*,*,#158,.F.);
#197=ORIENTED_EDGE('',*,*,#159,.F.);
#198=ORIENTED_EDGE('',*,*,#148,.T.);
#199=ORIENTED_EDGE('',*,*,#160,.T.);
#200=ORIENTED_EDGE('',*,*,#155,.T.);
#201=ORIENTED_EDGE('',*,*,#161,.T.);
#202=ORIENTED_EDGE('',*,*,#159,.T.);
#203=ORIENTED_EDGE('',*,*,#162,.T.);
#204=ORIENTED_EDGE('',*,*,#163,.T.);
#205=ORIENTED_EDGE('',*,*,#164,.F.);
#206=ORIENTED_EDGE('',*,*,#147,.T.);
#207=ORIENTED_EDGE('',*,*,#152,.T.);
#208=ORIENTED_EDGE('',*,*,#165,.T.);
#209=ORIENTED_EDGE('',*,*,#166,.T.);
#210=ORIENTED_EDGE('',*,*,#167,.T.);
#211=ORIENTED_EDGE('',*,*,#168,.T.);
#212=ORIENTED_EDGE('',*,*,#169,.T.);
#213=ORIENTED_EDGE('',*,*,#170,.T.);
#214=ORIENTED_EDGE('',*,*,#162,.F.);
#215=ORIENTED_EDGE('',*,*,#158,.T.);
#216=ORIENTED_EDGE('',*,*,#156,.T.);
#217=ORIENTED_EDGE('',*,*,#160,.F.);
#218=ORIENTED_EDGE('',*,*,#171,.F.);
#219=ORIENTED_EDGE('',*,*,#169,.F.);
#220=ORIENTED_EDGE('',*,*,#172,.F.);
#221=ORIENTED_EDGE('',*,*,#173,.F.);
#222=ORIENTED_EDGE('',*,*,#170,.F.);
#223=ORIENTED_EDGE('',*,*,#171,.T.);
#224=ORIENTED_EDGE('',*,*,#174,.F.);
#225=ORIENTED_EDGE('',*,*,#163,.F.);
#226=ORIENTED_EDGE('',*,*,#175,.F.);
#227=ORIENTED_EDGE('',*,*,#176,.F.);
#228=ORIENTED_EDGE('',*,*,#177,.F.);
#229=ORIENTED_EDGE('',*,*,#167,.F.);
#230=ORIENTED_EDGE('',*,*,#178,.F.);
#231=ORIENTED_EDGE('',*,*,#175,.T.);
#232=ORIENTED_EDGE('',*,*,#166,.F.);
#233=ORIENTED_EDGE('',*,*,#179,.F.);
#234=ORIENTED_EDGE('',*,*,#151,.T.);
#235=ORIENTED_EDGE('',*,*,#180,.T.);
#236=ORIENTED_EDGE('',*,*,#179,.T.);
#237=ORIENTED_EDGE('',*,*,#165,.F.);
#238=ORIENTED_EDGE('',*,*,#149,.T.);
#239=ORIENTED_EDGE('',*,*,#161,.F.);
#240=ORIENTED_EDGE('',*,*,#154,.T.);
#241=ORIENTED_EDGE('',*,*,#157,.T.);
#242=ORIENTED_EDGE('',*,*,#164,.T.);
#243=ORIENTED_EDGE('',*,*,#174,.T.);
#244=ORIENTED_EDGE('',*,*,#173,.T.);
#245=ORIENTED_EDGE('',*,*,#181,.T.);
#246=ORIENTED_EDGE('',*,*,#176,.T.);
#247=ORIENTED_EDGE('',*,*,#178,.T.);
#248=ORIENTED_EDGE('',*,*,#180,.F.);
#249=ORIENTED_EDGE('',*,*,#150,.T.);
#250=ORIENTED_EDGE('',*,*,#172,.T.);
#251=ORIENTED_EDGE('',*,*,#168,.F.);
#252=ORIENTED_EDGE('',*,*,#177,.T.);
#253=ORIENTED_EDGE('',*,*,#181,.F.);
#254=PLANE('',#284);
#255=PLANE('',#285);
#256=PLANE('',#286);
#257=PLANE('',#287);
#258=PLANE('',#288);
#259=PLANE('',#289);
#260=PLANE('',#290);
#261=PLANE('',#291);
#262=PLANE('',#292);
#263=PLANE('',#293);
#264=PLANE('',#294);
#265=PLANE('',#295);
#266=PLANE('',#296);
#267=PLANE('',#297);
#268=ADVANCED_FACE('',(#22),#254,.F.);
#269=ADVANCED_FACE('',(#23),#255,.F.);
#270=ADVANCED_FACE('',(#24),#256,.F.);
#271=ADVANCED_FACE('',(#25),#257,.F.);
#272=ADVANCED_FACE('',(#26),#258,.F.);
#273=ADVANCED_FACE('',(#27),#259,.T.);
#274=ADVANCED_FACE('',(#28),#260,.T.);
#275=ADVANCED_FACE('',(#29),#261,.F.);
#276=ADVANCED_FACE('',(#30),#262,.T.);
#277=ADVANCED_FACE('',(#31),#263,.F.);
#278=ADVANCED_FACE('',(#32),#264,.T.);
#279=ADVANCED_FACE('',(#33),#265,.T.);
#280=ADVANCED_FACE('',(#34),#266,.T.);
#281=ADVANCED_FACE('',(#35),#267,.T.);
#282=CLOSED_SHELL('',(#268,#269,#270,#271,#272,#273,#274,#275,#276,#277,
#278,#279,#280,#281));
#283=AXIS2_PLACEMENT_3D('placement',#364,#298,#299);
#284=AXIS2_PLACEMENT_3D('',#365,#300,#301);
#285=AXIS2_PLACEMENT_3D('',#374,#306,#307);
#286=AXIS2_PLACEMENT_3D('',#380,#311,#312);
#287=AXIS2_PLACEMENT_3D('',#389,#317,#318);
#288=AXIS2_PLACEMENT_3D('',#395,#322,#323);
#289=AXIS2_PLACEMENT_3D('',#398,#326,#327);
#290=AXIS2_PLACEMENT_3D('',#404,#331,#332);
#291=AXIS2_PLACEMENT_3D('',#416,#339,#340);
#292=AXIS2_PLACEMENT_3D('',#422,#344,#345);
#293=AXIS2_PLACEMENT_3D('',#424,#347,#348);
#294=AXIS2_PLACEMENT_3D('',#430,#352,#353);
#295=AXIS2_PLACEMENT_3D('',#434,#356,#357);
#296=AXIS2_PLACEMENT_3D('',#436,#359,#360);
#297=AXIS2_PLACEMENT_3D('',#438,#362,#363);
#298=DIRECTION('axis',(0.,0.,1.));
#299=DIRECTION('refdir',(1.,0.,0.));
#300=DIRECTION('center_axis',(-1.,2.77555756156288E-16,0.));
#301=DIRECTION('ref_axis',(0.,0.,1.));
#302=DIRECTION('',(2.77555756156288E-16,1.,0.));
#303=DIRECTION('',(0.,0.,1.));
#304=DIRECTION('',(-2.77555756156288E-16,-1.,0.));
#305=DIRECTION('',(0.,0.,-1.));
#306=DIRECTION('center_axis',(0.,0.,1.));
#307=DIRECTION('ref_axis',(1.,0.,0.));
#308=DIRECTION('',(-1.,-6.93889390390723E-17,0.));
#309=DIRECTION('',(0.,1.,0.));
#310=DIRECTION('',(1.,0.,0.));
#311=DIRECTION('center_axis',(1.,0.,0.));
#312=DIRECTION('ref_axis',(0.,0.,-1.));
#313=DIRECTION('',(0.,-1.,0.));
#314=DIRECTION('',(0.,0.,1.));
#315=DIRECTION('',(0.,1.,0.));
#316=DIRECTION('',(0.,0.,-1.));
#317=DIRECTION('center_axis',(0.,0.,1.));
#318=DIRECTION('ref_axis',(1.,0.,0.));
#319=DIRECTION('',(-1.,-6.93889390390723E-17,0.));
#320=DIRECTION('',(1.,0.,0.));
#321=DIRECTION('',(-1.33226762955019E-15,-1.,0.));
#322=DIRECTION('center_axis',(0.,0.,1.));
#323=DIRECTION('ref_axis',(1.,0.,0.));
#324=DIRECTION('',(-1.,0.,0.));
#325=DIRECTION('',(1.,6.93889390390723E-17,0.));
#326=DIRECTION('center_axis',(-1.,1.33226762955019E-15,0.));
#327=DIRECTION('ref_axis',(0.,0.,1.));
#328=DIRECTION('',(0.,0.,1.));
#329=DIRECTION('',(1.33226762955019E-15,1.,-2.94351084037664E-32));
#330=DIRECTION('',(0.,0.,1.));
#331=DIRECTION('center_axis',(0.,-1.,0.));
#332=DIRECTION('ref_axis',(0.,0.,-1.));
#333=DIRECTION('',(0.,0.,1.));
#334=DIRECTION('',(-1.,0.,4.69309764090708E-32));
#335=DIRECTION('',(0.,0.,1.));
#336=DIRECTION('',(-1.,0.,0.));
#337=DIRECTION('',(0.,0.,-1.));
#338=DIRECTION('',(-1.,0.,-3.73101262452112E-30));
#339=DIRECTION('center_axis',(1.,2.22044604925031E-16,0.));
#340=DIRECTION('ref_axis',(0.,0.,-1.));
#341=DIRECTION('',(-2.22044604925031E-16,1.,0.));
#342=DIRECTION('',(2.22044604925031E-16,-1.,0.));
#343=DIRECTION('',(0.,0.,1.));
#344=DIRECTION('center_axis',(-3.73101262452112E-30,2.94351084037714E-32,
1.));
#345=DIRECTION('ref_axis',(1.,0.,0.));
#346=DIRECTION('',(1.,6.93889390390723E-17,3.73101262452112E-30));
#347=DIRECTION('center_axis',(-1.,-2.22044604925031E-16,0.));
#348=DIRECTION('ref_axis',(0.,0.,1.));
#349=DIRECTION('',(2.22044604925031E-16,-1.,0.));
#350=DIRECTION('',(0.,0.,-1.));
#351=DIRECTION('',(-2.22044604925031E-16,1.,0.));
#352=DIRECTION('center_axis',(4.69309764090708E-32,-6.99083824589516E-32,
1.));
#353=DIRECTION('ref_axis',(1.,0.,0.));
#354=DIRECTION('',(1.,6.93889390390723E-17,-4.69309764090708E-32));
#355=DIRECTION('',(0.,-1.,-6.99083824589516E-32));
#356=DIRECTION('center_axis',(1.,0.,0.));
#357=DIRECTION('ref_axis',(0.,0.,-1.));
#358=DIRECTION('',(0.,0.,1.));
#359=DIRECTION('center_axis',(-6.93889390390723E-17,1.,0.));
#360=DIRECTION('ref_axis',(0.,0.,1.));
#361=DIRECTION('',(1.,6.93889390390723E-17,0.));
#362=DIRECTION('center_axis',(0.,0.,1.));
#363=DIRECTION('ref_axis',(1.,0.,0.));
#364=CARTESIAN_POINT('',(0.,0.,0.));
#365=CARTESIAN_POINT('Origin',(-0.4,0.,0.));
#366=CARTESIAN_POINT('',(-0.4,0.,0.0001));
#367=CARTESIAN_POINT('',(-0.4,1.25,0.0001));
#368=CARTESIAN_POINT('',(-0.4,0.,0.0001));
#369=CARTESIAN_POINT('',(-0.4,0.,0.));
#370=CARTESIAN_POINT('',(-0.4,0.,0.));
#371=CARTESIAN_POINT('',(-0.4,1.25,0.));
#372=CARTESIAN_POINT('',(-0.4,0.3125,0.));
#373=CARTESIAN_POINT('',(-0.4,1.25,0.));
#374=CARTESIAN_POINT('Origin',(-0.2,0.625000000000001,0.0001));
#375=CARTESIAN_POINT('',(0.,1.25,0.0001));
#376=CARTESIAN_POINT('',(-1.1,1.25,0.0001));
#377=CARTESIAN_POINT('',(0.,0.,0.0001));
#378=CARTESIAN_POINT('',(0.,0.9375,0.0001));
#379=CARTESIAN_POINT('',(-0.1,0.,0.0001));
#380=CARTESIAN_POINT('Origin',(-1.6,1.25,0.));
#381=CARTESIAN_POINT('',(-1.6,1.25,0.0001));
#382=CARTESIAN_POINT('',(-1.6,1.46957615897683E-16,0.0001));
#383=CARTESIAN_POINT('',(-1.6,1.25,0.0001));
#384=CARTESIAN_POINT('',(-1.6,1.25,0.));
#385=CARTESIAN_POINT('',(-1.6,1.25,0.));
#386=CARTESIAN_POINT('',(-1.6,1.46957615897683E-16,0.));
#387=CARTESIAN_POINT('',(-1.6,0.937500000000002,0.));
#388=CARTESIAN_POINT('',(-1.6,0.,0.));
#389=CARTESIAN_POINT('Origin',(-1.8,0.625,0.0001));
#390=CARTESIAN_POINT('',(-2.,1.25,0.0001));
#391=CARTESIAN_POINT('',(-1.9,1.25,0.0001));
#392=CARTESIAN_POINT('',(-2.,0.,0.0001));
#393=CARTESIAN_POINT('',(-0.900000000000001,0.,0.0001));
#394=CARTESIAN_POINT('',(-2.,0.3125,0.0001));
#395=CARTESIAN_POINT('Origin',(-1.,0.625,0.));
#396=CARTESIAN_POINT('',(0.,0.,0.));
#397=CARTESIAN_POINT('',(-2.,1.25,0.));
#398=CARTESIAN_POINT('Origin',(-2.,0.,0.));
#399=CARTESIAN_POINT('',(-2.,0.,0.4999));
#400=CARTESIAN_POINT('',(-2.,0.,0.));
#401=CARTESIAN_POINT('',(-2.,1.25,0.4999));
#402=CARTESIAN_POINT('',(-2.,0.3125,0.4999));
#403=CARTESIAN_POINT('',(-2.,1.25,0.));
#404=CARTESIAN_POINT('Origin',(0.,0.,0.));
#405=CARTESIAN_POINT('',(0.,0.,0.4999));
#406=CARTESIAN_POINT('',(0.,0.,0.));
#407=CARTESIAN_POINT('',(-0.349999999999998,3.98010209722891E-16,0.4999));
#408=CARTESIAN_POINT('',(-0.0874999999999997,0.,0.4999));
#409=CARTESIAN_POINT('',(-0.349999999999998,3.98010209722891E-16,0.5));
#410=CARTESIAN_POINT('',(-0.349999999999998,0.,0.25));
#411=CARTESIAN_POINT('',(-1.65,0.,0.5));
#412=CARTESIAN_POINT('',(0.,0.,0.5));
#413=CARTESIAN_POINT('',(-1.65,0.,0.4999));
#414=CARTESIAN_POINT('',(-1.65,0.,0.25));
#415=CARTESIAN_POINT('',(-0.912500000000001,0.,0.4999));
#416=CARTESIAN_POINT('Origin',(-1.65,0.,0.5));
#417=CARTESIAN_POINT('',(-1.65,1.25,0.4999));
#418=CARTESIAN_POINT('',(-1.65,0.,0.4999));
#419=CARTESIAN_POINT('',(-1.65,1.25,0.5));
#420=CARTESIAN_POINT('',(-1.65,0.3125,0.5));
#421=CARTESIAN_POINT('',(-1.65,1.25,0.25));
#422=CARTESIAN_POINT('Origin',(-1.825,0.625,0.4999));
#423=CARTESIAN_POINT('',(-1.9125,1.25,0.4999));
#424=CARTESIAN_POINT('Origin',(-0.349999999999999,1.25,0.5));
#425=CARTESIAN_POINT('',(-0.349999999999999,1.25,0.4999));
#426=CARTESIAN_POINT('',(-0.349999999999999,1.25,0.4999));
#427=CARTESIAN_POINT('',(-0.349999999999999,1.25,0.5));
#428=CARTESIAN_POINT('',(-0.349999999999999,1.25,0.25));
#429=CARTESIAN_POINT('',(-0.349999999999999,0.9375,0.5));
#430=CARTESIAN_POINT('Origin',(-0.174999999999999,0.625,0.4999));
#431=CARTESIAN_POINT('',(0.,1.25,0.4999));
#432=CARTESIAN_POINT('',(-1.0875,1.25,0.4999));
#433=CARTESIAN_POINT('',(0.,0.9375,0.4999));
#434=CARTESIAN_POINT('Origin',(0.,1.25,0.));
#435=CARTESIAN_POINT('',(0.,1.25,0.));
#436=CARTESIAN_POINT('Origin',(-2.,1.25,0.));
#437=CARTESIAN_POINT('',(-2.,1.25,0.5));
#438=CARTESIAN_POINT('Origin',(-1.,0.625,0.5));
#439=UNCERTAINTY_MEASURE_WITH_UNIT(LENGTH_MEASURE(0.01),#443,
'DISTANCE_ACCURACY_VALUE',
'Maximum model space distance between geometric entities at asserted c
onnectivities');
#440=UNCERTAINTY_MEASURE_WITH_UNIT(LENGTH_MEASURE(1.E-6),#443,
'DISTANCE_ACCURACY_VALUE',
'Maximum model space distance between geometric entities at asserted c
onnectivities');
#441=(
GEOMETRIC_REPRESENTATION_CONTEXT(3)
GLOBAL_UNCERTAINTY_ASSIGNED_CONTEXT((#439))
GLOBAL_UNIT_ASSIGNED_CONTEXT((#443,#446,#444))
REPRESENTATION_CONTEXT('','3D')
);
#442=(
GEOMETRIC_REPRESENTATION_CONTEXT(3)
GLOBAL_UNCERTAINTY_ASSIGNED_CONTEXT((#440))
GLOBAL_UNIT_ASSIGNED_CONTEXT((#443,#446,#444))
REPRESENTATION_CONTEXT('','3D')
);
#443=(
LENGTH_UNIT()
NAMED_UNIT(*)
SI_UNIT(.MILLI.,.METRE.)
);
#444=(
NAMED_UNIT(*)
SI_UNIT($,.STERADIAN.)
SOLID_ANGLE_UNIT()
);
#445=DIMENSIONAL_EXPONENTS(0.,0.,0.,0.,0.,0.,0.);
#446=(
CONVERSION_BASED_UNIT('degree',#448)
NAMED_UNIT(#445)
PLANE_ANGLE_UNIT()
);
#447=(
NAMED_UNIT(*)
PLANE_ANGLE_UNIT()
SI_UNIT($,.RADIAN.)
);
#448=PLANE_ANGLE_MEASURE_WITH_UNIT(PLANE_ANGLE_MEASURE(0.01745329252),#447);
#449=SHAPE_DEFINITION_REPRESENTATION(#450,#451);
#450=PRODUCT_DEFINITION_SHAPE('',$,#453);
#451=SHAPE_REPRESENTATION('',(#283),#441);
#452=PRODUCT_DEFINITION_CONTEXT('part definition',#457,'design');
#453=PRODUCT_DEFINITION('ENG-1938301','ENG-1938301',#454,#452);
#454=PRODUCT_DEFINITION_FORMATION('',$,#459);
#455=PRODUCT_RELATED_PRODUCT_CATEGORY('ENG-1938301','ENG-1938301',(#459));
#456=APPLICATION_PROTOCOL_DEFINITION('international standard',
'automotive_design',2009,#457);
#457=APPLICATION_CONTEXT(
'Core Data for Automotive Mechanical Design Process');
#458=PRODUCT_CONTEXT('part definition',#457,'mechanical');
#459=PRODUCT('ENG-1938301','ENG-1938301',$,(#458));
#460=PRESENTATION_STYLE_ASSIGNMENT((#463));
#461=PRESENTATION_STYLE_ASSIGNMENT((#464));
#462=PRESENTATION_STYLE_ASSIGNMENT((#465));
#463=SURFACE_STYLE_USAGE(.BOTH.,#466);
#464=SURFACE_STYLE_USAGE(.BOTH.,#467);
#465=SURFACE_STYLE_USAGE(.BOTH.,#468);
#466=SURFACE_SIDE_STYLE('',(#469));
#467=SURFACE_SIDE_STYLE('',(#470));
#468=SURFACE_SIDE_STYLE('',(#471));
#469=SURFACE_STYLE_FILL_AREA(#472);
#470=SURFACE_STYLE_FILL_AREA(#473);
#471=SURFACE_STYLE_FILL_AREA(#474);
#472=FILL_AREA_STYLE('',(#475));
#473=FILL_AREA_STYLE('',(#476));
#474=FILL_AREA_STYLE('',(#477));
#475=FILL_AREA_STYLE_COLOUR('',#478);
#476=FILL_AREA_STYLE_COLOUR('',#479);
#477=FILL_AREA_STYLE_COLOUR('',#480);
#478=COLOUR_RGB('',1.,1.,1.);
#479=COLOUR_RGB('',0.501960784313725,0.501960784313725,0.501960784313725);
#480=COLOUR_RGB('',0.00392156862745098,0.211764705882353,0.819607843137255);
ENDSEC;
END-ISO-10303-21;
