ISO-10303-21;
HEADER;
/****************************************************************
 * Generated by software with PDE/Lib inside                    *
 * PDElib Version v51a, created Thu 01/14/2010                  *
 * ITI Transcendata (http://www.transcendata.com/)              *
 ****************************************************************/
FILE_DESCRIPTION((''),'2;1');
FILE_NAME('C:\\temp\\Productstream-Daten\\CAD-Modelle Produkte\\4145.stp','2014-09-10T10:40:48',('tmichling'),(''),'Autodesk Inventor 2011','Autodesk Inventor 2011','');
FILE_SCHEMA(('AUTOMOTIVE_DESIGN { 1 0 10303 214 1 1 1 1 }'));
ENDSEC;
DATA;
#5=APPLICATION_CONTEXT('automotive design');
#6=APPLICATION_PROTOCOL_DEFINITION('International Standard','automotive_design',2001,#5);
#7=PRODUCT_CONTEXT('',#5,'mechanical');
#8=PRODUCT('ENG-1650371','ENG-1650371',$,(#7));
#9=PRODUCT_RELATED_PRODUCT_CATEGORY('part',$,(#8));
#10=PRODUCT_DEFINITION_FORMATION('',$,#8);
#11=PRODUCT_DEFINITION_CONTEXT('part definition',#5,'design');
#12=PRODUCT_DEFINITION('',$,#10,#11);
#18=(NAMED_UNIT(*)PLANE_ANGLE_UNIT()SI_UNIT($,.RADIAN.));
#19=DIMENSIONAL_EXPONENTS(0.0,0.0,0.0,0.0,0.0,0.0,0.0);
#20=PLANE_ANGLE_MEASURE_WITH_UNIT(PLANE_ANGLE_MEASURE(0.017453292500000),#18);
#24=(CONVERSION_BASED_UNIT('DEGREE',#20)NAMED_UNIT(#19)PLANE_ANGLE_UNIT());
#28=(NAMED_UNIT(*)SI_UNIT($,.STERADIAN.)SOLID_ANGLE_UNIT());
#32=(LENGTH_UNIT()NAMED_UNIT(*)SI_UNIT(.MILLI.,.METRE.));
#34=UNCERTAINTY_MEASURE_WITH_UNIT(LENGTH_MEASURE(0.010000000000000),#32,'DISTANCE_ACCURACY_VALUE','');
#36=(GEOMETRIC_REPRESENTATION_CONTEXT(3)GLOBAL_UNCERTAINTY_ASSIGNED_CONTEXT((#34))GLOBAL_UNIT_ASSIGNED_CONTEXT((#24,#28,#32))REPRESENTATION_CONTEXT('None','None'));
#37=AXIS2_PLACEMENT_3D('',#38,#39,#40);
#38=CARTESIAN_POINT('',(0.0,0.0,0.0));
#39=DIRECTION('',(0.0,0.0,1.0));
#40=DIRECTION('',(1.0,0.0,0.0));
#41=SHAPE_REPRESENTATION('',(#37),#36);
#42=PRODUCT_DEFINITION_SHAPE('','',#12);
#43=SHAPE_DEFINITION_REPRESENTATION(#42,#41);
#49=(NAMED_UNIT(*)PLANE_ANGLE_UNIT()SI_UNIT($,.RADIAN.));
#50=DIMENSIONAL_EXPONENTS(0.0,0.0,0.0,0.0,0.0,0.0,0.0);
#51=PLANE_ANGLE_MEASURE_WITH_UNIT(PLANE_ANGLE_MEASURE(0.017453292500000),#49);
#55=(CONVERSION_BASED_UNIT('DEGREE',#51)NAMED_UNIT(#50)PLANE_ANGLE_UNIT());
#59=(NAMED_UNIT(*)SI_UNIT($,.STERADIAN.)SOLID_ANGLE_UNIT());
#63=(LENGTH_UNIT()NAMED_UNIT(*)SI_UNIT(.MILLI.,.METRE.));
#65=UNCERTAINTY_MEASURE_WITH_UNIT(LENGTH_MEASURE(0.000001000000000),#63,'DISTANCE_ACCURACY_VALUE','');
#67=(GEOMETRIC_REPRESENTATION_CONTEXT(3)GLOBAL_UNCERTAINTY_ASSIGNED_CONTEXT((#65))GLOBAL_UNIT_ASSIGNED_CONTEXT((#55,#59,#63))REPRESENTATION_CONTEXT('','3D'));
#68=CARTESIAN_POINT('',(0.0,1.097500000000000,1.925000000000000));
#69=DIRECTION('',(0.0,0.0,1.0));
#70=DIRECTION('',(1.0,0.0,0.0));
#71=AXIS2_PLACEMENT_3D('',#68,#69,#70);
#72=PLANE('',#71);
#73=CARTESIAN_POINT('',(0.0,1.098000000000000,1.925000000000000));
#74=VERTEX_POINT('',#73);
#75=CARTESIAN_POINT('',(0.0,0.0,1.925000000000000));
#76=DIRECTION('',(0.0,0.0,1.0));
#77=DIRECTION('',(0.0,-1.0,0.0));
#78=AXIS2_PLACEMENT_3D('',#75,#76,#77);
#79=CIRCLE('',#78,1.098000000000000);
#80=EDGE_CURVE('',#74,#74,#79,.T.);
#81=ORIENTED_EDGE('',*,*,#80,.F.);
#82=EDGE_LOOP('',(#81));
#83=FACE_OUTER_BOUND('',#82,.T.);
#84=CARTESIAN_POINT('',(0.0,1.097000000000000,1.925000000000000));
#85=VERTEX_POINT('',#84);
#86=CARTESIAN_POINT('',(0.0,4.898587E-017,1.925000000000000));
#87=DIRECTION('',(0.0,0.0,1.0));
#88=DIRECTION('',(0.0,1.0,0.0));
#89=AXIS2_PLACEMENT_3D('',#86,#87,#88);
#90=CIRCLE('',#89,1.097000000000000);
#91=EDGE_CURVE('',#85,#85,#90,.T.);
#92=ORIENTED_EDGE('',*,*,#91,.T.);
#93=EDGE_LOOP('',(#92));
#94=FACE_BOUND('',#93,.T.);
#95=ADVANCED_FACE('',(#83,#94),#72,.F.);
#96=CARTESIAN_POINT('',(0.0,5.510911E-017,1.875000000000000));
#97=DIRECTION('',(0.0,-1.224647E-016,1.0));
#98=DIRECTION('',(0.0,1.0,0.0));
#99=AXIS2_PLACEMENT_3D('',#96,#97,#98);
#100=CYLINDRICAL_SURFACE('',#99,1.097000000000000);
#101=CARTESIAN_POINT('',(0.0,1.097000000000000,1.825000000000000));
#102=VERTEX_POINT('',#101);
#103=CARTESIAN_POINT('',(0.0,6.123234E-017,1.825000000000000));
#104=DIRECTION('',(0.0,0.0,1.0));
#105=DIRECTION('',(0.0,1.0,0.0));
#106=AXIS2_PLACEMENT_3D('',#103,#104,#105);
#107=CIRCLE('',#106,1.097000000000000);
#108=EDGE_CURVE('',#102,#102,#107,.T.);
#109=ORIENTED_EDGE('',*,*,#108,.T.);
#110=EDGE_LOOP('',(#109));
#111=FACE_OUTER_BOUND('',#110,.T.);
#112=ORIENTED_EDGE('',*,*,#91,.F.);
#113=EDGE_LOOP('',(#112));
#114=FACE_BOUND('',#113,.T.);
#115=ADVANCED_FACE('',(#111,#114),#100,.T.);
#116=CARTESIAN_POINT('',(0.0,1.097500000000000,1.825000000000000));
#117=DIRECTION('',(0.0,0.0,-1.0));
#118=DIRECTION('',(-1.0,0.0,0.0));
#119=AXIS2_PLACEMENT_3D('',#116,#117,#118);
#120=PLANE('',#119);
#121=CARTESIAN_POINT('',(0.0,1.098000000000000,1.825000000000000));
#122=VERTEX_POINT('',#121);
#123=CARTESIAN_POINT('',(0.0,0.0,1.825000000000000));
#124=DIRECTION('',(0.0,0.0,-1.0));
#125=DIRECTION('',(0.0,-1.0,0.0));
#126=AXIS2_PLACEMENT_3D('',#123,#124,#125);
#127=CIRCLE('',#126,1.098000000000000);
#128=EDGE_CURVE('',#122,#122,#127,.T.);
#129=ORIENTED_EDGE('',*,*,#128,.F.);
#130=EDGE_LOOP('',(#129));
#131=FACE_OUTER_BOUND('',#130,.T.);
#132=ORIENTED_EDGE('',*,*,#108,.F.);
#133=EDGE_LOOP('',(#132));
#134=FACE_BOUND('',#133,.T.);
#135=ADVANCED_FACE('',(#131,#134),#120,.F.);
#136=CARTESIAN_POINT('',(0.0,1.097500000000000,2.425000000000001));
#137=DIRECTION('',(0.0,0.0,1.0));
#138=DIRECTION('',(1.0,0.0,0.0));
#139=AXIS2_PLACEMENT_3D('',#136,#137,#138);
#140=PLANE('',#139);
#141=CARTESIAN_POINT('',(0.0,1.098000000000000,2.425000000000001));
#142=VERTEX_POINT('',#141);
#143=CARTESIAN_POINT('',(0.0,0.0,2.425000000000001));
#144=DIRECTION('',(0.0,0.0,1.0));
#145=DIRECTION('',(0.0,-1.0,0.0));
#146=AXIS2_PLACEMENT_3D('',#143,#144,#145);
#147=CIRCLE('',#146,1.098000000000000);
#148=EDGE_CURVE('',#142,#142,#147,.T.);
#149=ORIENTED_EDGE('',*,*,#148,.F.);
#150=EDGE_LOOP('',(#149));
#151=FACE_OUTER_BOUND('',#150,.T.);
#152=CARTESIAN_POINT('',(0.0,1.097000000000000,2.425000000000001));
#153=VERTEX_POINT('',#152);
#154=CARTESIAN_POINT('',(0.0,4.898587E-017,2.425000000000001));
#155=DIRECTION('',(0.0,0.0,1.0));
#156=DIRECTION('',(0.0,1.0,0.0));
#157=AXIS2_PLACEMENT_3D('',#154,#155,#156);
#158=CIRCLE('',#157,1.097000000000000);
#159=EDGE_CURVE('',#153,#153,#158,.T.);
#160=ORIENTED_EDGE('',*,*,#159,.T.);
#161=EDGE_LOOP('',(#160));
#162=FACE_BOUND('',#161,.T.);
#163=ADVANCED_FACE('',(#151,#162),#140,.F.);
#164=CARTESIAN_POINT('',(0.0,5.510911E-017,2.375000000000000));
#165=DIRECTION('',(0.0,-1.224647E-016,1.0));
#166=DIRECTION('',(0.0,1.0,0.0));
#167=AXIS2_PLACEMENT_3D('',#164,#165,#166);
#168=CYLINDRICAL_SURFACE('',#167,1.097000000000000);
#169=CARTESIAN_POINT('',(0.0,1.097000000000000,2.325000000000000));
#170=VERTEX_POINT('',#169);
#171=CARTESIAN_POINT('',(0.0,6.123234E-017,2.325000000000000));
#172=DIRECTION('',(0.0,0.0,1.0));
#173=DIRECTION('',(0.0,1.0,0.0));
#174=AXIS2_PLACEMENT_3D('',#171,#172,#173);
#175=CIRCLE('',#174,1.097000000000000);
#176=EDGE_CURVE('',#170,#170,#175,.T.);
#177=ORIENTED_EDGE('',*,*,#176,.T.);
#178=EDGE_LOOP('',(#177));
#179=FACE_OUTER_BOUND('',#178,.T.);
#180=ORIENTED_EDGE('',*,*,#159,.F.);
#181=EDGE_LOOP('',(#180));
#182=FACE_BOUND('',#181,.T.);
#183=ADVANCED_FACE('',(#179,#182),#168,.T.);
#184=CARTESIAN_POINT('',(0.0,1.097500000000000,2.325000000000000));
#185=DIRECTION('',(0.0,0.0,-1.0));
#186=DIRECTION('',(-1.0,0.0,0.0));
#187=AXIS2_PLACEMENT_3D('',#184,#185,#186);
#188=PLANE('',#187);
#189=CARTESIAN_POINT('',(0.0,1.098000000000000,2.325000000000000));
#190=VERTEX_POINT('',#189);
#191=CARTESIAN_POINT('',(0.0,0.0,2.325000000000000));
#192=DIRECTION('',(0.0,0.0,-1.0));
#193=DIRECTION('',(0.0,-1.0,0.0));
#194=AXIS2_PLACEMENT_3D('',#191,#192,#193);
#195=CIRCLE('',#194,1.098000000000000);
#196=EDGE_CURVE('',#190,#190,#195,.T.);
#197=ORIENTED_EDGE('',*,*,#196,.F.);
#198=EDGE_LOOP('',(#197));
#199=FACE_OUTER_BOUND('',#198,.T.);
#200=ORIENTED_EDGE('',*,*,#176,.F.);
#201=EDGE_LOOP('',(#200));
#202=FACE_BOUND('',#201,.T.);
#203=ADVANCED_FACE('',(#199,#202),#188,.F.);
#204=CARTESIAN_POINT('',(0.0,1.097500000000000,2.925000000000000));
#205=DIRECTION('',(0.0,0.0,1.0));
#206=DIRECTION('',(1.0,0.0,0.0));
#207=AXIS2_PLACEMENT_3D('',#204,#205,#206);
#208=PLANE('',#207);
#209=CARTESIAN_POINT('',(0.0,1.098000000000000,2.925000000000000));
#210=VERTEX_POINT('',#209);
#211=CARTESIAN_POINT('',(0.0,0.0,2.925000000000000));
#212=DIRECTION('',(0.0,0.0,1.0));
#213=DIRECTION('',(0.0,-1.0,0.0));
#214=AXIS2_PLACEMENT_3D('',#211,#212,#213);
#215=CIRCLE('',#214,1.098000000000000);
#216=EDGE_CURVE('',#210,#210,#215,.T.);
#217=ORIENTED_EDGE('',*,*,#216,.F.);
#218=EDGE_LOOP('',(#217));
#219=FACE_OUTER_BOUND('',#218,.T.);
#220=CARTESIAN_POINT('',(0.0,1.097000000000000,2.925000000000000));
#221=VERTEX_POINT('',#220);
#222=CARTESIAN_POINT('',(0.0,4.898587E-017,2.925000000000000));
#223=DIRECTION('',(0.0,0.0,1.0));
#224=DIRECTION('',(0.0,1.0,0.0));
#225=AXIS2_PLACEMENT_3D('',#222,#223,#224);
#226=CIRCLE('',#225,1.097000000000000);
#227=EDGE_CURVE('',#221,#221,#226,.T.);
#228=ORIENTED_EDGE('',*,*,#227,.T.);
#229=EDGE_LOOP('',(#228));
#230=FACE_BOUND('',#229,.T.);
#231=ADVANCED_FACE('',(#219,#230),#208,.F.);
#232=CARTESIAN_POINT('',(0.0,5.510911E-017,2.875000000000000));
#233=DIRECTION('',(0.0,-1.224647E-016,1.0));
#234=DIRECTION('',(0.0,1.0,0.0));
#235=AXIS2_PLACEMENT_3D('',#232,#233,#234);
#236=CYLINDRICAL_SURFACE('',#235,1.097000000000000);
#237=CARTESIAN_POINT('',(0.0,1.097000000000000,2.825000000000000));
#238=VERTEX_POINT('',#237);
#239=CARTESIAN_POINT('',(0.0,6.123234E-017,2.825000000000000));
#240=DIRECTION('',(0.0,0.0,1.0));
#241=DIRECTION('',(0.0,1.0,0.0));
#242=AXIS2_PLACEMENT_3D('',#239,#240,#241);
#243=CIRCLE('',#242,1.097000000000000);
#244=EDGE_CURVE('',#238,#238,#243,.T.);
#245=ORIENTED_EDGE('',*,*,#244,.T.);
#246=EDGE_LOOP('',(#245));
#247=FACE_OUTER_BOUND('',#246,.T.);
#248=ORIENTED_EDGE('',*,*,#227,.F.);
#249=EDGE_LOOP('',(#248));
#250=FACE_BOUND('',#249,.T.);
#251=ADVANCED_FACE('',(#247,#250),#236,.T.);
#252=CARTESIAN_POINT('',(0.0,1.097500000000000,2.825000000000000));
#253=DIRECTION('',(0.0,0.0,-1.0));
#254=DIRECTION('',(-1.0,0.0,0.0));
#255=AXIS2_PLACEMENT_3D('',#252,#253,#254);
#256=PLANE('',#255);
#257=CARTESIAN_POINT('',(0.0,1.098000000000000,2.825000000000000));
#258=VERTEX_POINT('',#257);
#259=CARTESIAN_POINT('',(0.0,0.0,2.825000000000000));
#260=DIRECTION('',(0.0,0.0,-1.0));
#261=DIRECTION('',(0.0,-1.0,0.0));
#262=AXIS2_PLACEMENT_3D('',#259,#260,#261);
#263=CIRCLE('',#262,1.098000000000000);
#264=EDGE_CURVE('',#258,#258,#263,.T.);
#265=ORIENTED_EDGE('',*,*,#264,.F.);
#266=EDGE_LOOP('',(#265));
#267=FACE_OUTER_BOUND('',#266,.T.);
#268=ORIENTED_EDGE('',*,*,#244,.F.);
#269=EDGE_LOOP('',(#268));
#270=FACE_BOUND('',#269,.T.);
#271=ADVANCED_FACE('',(#267,#270),#256,.F.);
#272=CARTESIAN_POINT('',(0.0,0.0,2.900000000000000));
#273=DIRECTION('',(0.0,0.0,-1.0));
#274=DIRECTION('',(0.0,-1.0,0.0));
#275=AXIS2_PLACEMENT_3D('',#272,#273,#274);
#276=CYLINDRICAL_SURFACE('',#275,1.098000000000000);
#277=ORIENTED_EDGE('',*,*,#264,.T.);
#278=EDGE_LOOP('',(#277));
#279=FACE_OUTER_BOUND('',#278,.T.);
#280=ORIENTED_EDGE('',*,*,#148,.T.);
#281=EDGE_LOOP('',(#280));
#282=FACE_BOUND('',#281,.T.);
#283=ADVANCED_FACE('',(#279,#282),#276,.T.);
#284=CARTESIAN_POINT('',(0.0,0.0,2.900000000000000));
#285=DIRECTION('',(0.0,0.0,-1.0));
#286=DIRECTION('',(0.0,-1.0,0.0));
#287=AXIS2_PLACEMENT_3D('',#284,#285,#286);
#288=CYLINDRICAL_SURFACE('',#287,1.098000000000000);
#289=ORIENTED_EDGE('',*,*,#196,.T.);
#290=EDGE_LOOP('',(#289));
#291=FACE_OUTER_BOUND('',#290,.T.);
#292=ORIENTED_EDGE('',*,*,#80,.T.);
#293=EDGE_LOOP('',(#292));
#294=FACE_BOUND('',#293,.T.);
#295=ADVANCED_FACE('',(#291,#294),#288,.T.);
#296=CARTESIAN_POINT('',(0.0,0.0,2.900000000000000));
#297=DIRECTION('',(0.0,0.0,-1.0));
#298=DIRECTION('',(0.0,-1.0,0.0));
#299=AXIS2_PLACEMENT_3D('',#296,#297,#298);
#300=CYLINDRICAL_SURFACE('',#299,1.098000000000000);
#301=CARTESIAN_POINT('',(0.0,-1.098000000000001,1.300000000000000));
#302=VERTEX_POINT('',#301);
#303=CARTESIAN_POINT('',(0.0,0.0,1.300000000000000));
#304=DIRECTION('',(0.0,0.0,-1.0));
#305=DIRECTION('',(0.0,-1.0,0.0));
#306=AXIS2_PLACEMENT_3D('',#303,#304,#305);
#307=CIRCLE('',#306,1.098000000000001);
#308=EDGE_CURVE('',#302,#302,#307,.T.);
#309=ORIENTED_EDGE('',*,*,#308,.F.);
#310=EDGE_LOOP('',(#309));
#311=FACE_OUTER_BOUND('',#310,.T.);
#312=ORIENTED_EDGE('',*,*,#128,.T.);
#313=EDGE_LOOP('',(#312));
#314=FACE_BOUND('',#313,.T.);
#315=ADVANCED_FACE('',(#311,#314),#300,.T.);
#316=CARTESIAN_POINT('',(0.0,1.097500000000000,3.425000000000000));
#317=DIRECTION('',(0.0,0.0,1.0));
#318=DIRECTION('',(1.0,0.0,0.0));
#319=AXIS2_PLACEMENT_3D('',#316,#317,#318);
#320=PLANE('',#319);
#321=CARTESIAN_POINT('',(0.0,1.098000000000000,3.425000000000000));
#322=VERTEX_POINT('',#321);
#323=CARTESIAN_POINT('',(0.0,0.0,3.425000000000000));
#324=DIRECTION('',(0.0,0.0,1.0));
#325=DIRECTION('',(0.0,-1.0,0.0));
#326=AXIS2_PLACEMENT_3D('',#323,#324,#325);
#327=CIRCLE('',#326,1.098000000000000);
#328=EDGE_CURVE('',#322,#322,#327,.T.);
#329=ORIENTED_EDGE('',*,*,#328,.F.);
#330=EDGE_LOOP('',(#329));
#331=FACE_OUTER_BOUND('',#330,.T.);
#332=CARTESIAN_POINT('',(0.0,1.097000000000000,3.425000000000000));
#333=VERTEX_POINT('',#332);
#334=CARTESIAN_POINT('',(0.0,4.898587E-017,3.425000000000000));
#335=DIRECTION('',(0.0,0.0,1.0));
#336=DIRECTION('',(0.0,1.0,0.0));
#337=AXIS2_PLACEMENT_3D('',#334,#335,#336);
#338=CIRCLE('',#337,1.097000000000000);
#339=EDGE_CURVE('',#333,#333,#338,.T.);
#340=ORIENTED_EDGE('',*,*,#339,.T.);
#341=EDGE_LOOP('',(#340));
#342=FACE_BOUND('',#341,.T.);
#343=ADVANCED_FACE('',(#331,#342),#320,.F.);
#344=CARTESIAN_POINT('',(0.0,5.510911E-017,3.375000000000000));
#345=DIRECTION('',(0.0,-1.224647E-016,1.0));
#346=DIRECTION('',(0.0,1.0,0.0));
#347=AXIS2_PLACEMENT_3D('',#344,#345,#346);
#348=CYLINDRICAL_SURFACE('',#347,1.097000000000000);
#349=CARTESIAN_POINT('',(0.0,1.097000000000000,3.325000000000000));
#350=VERTEX_POINT('',#349);
#351=CARTESIAN_POINT('',(0.0,6.123234E-017,3.325000000000000));
#352=DIRECTION('',(0.0,0.0,1.0));
#353=DIRECTION('',(0.0,1.0,0.0));
#354=AXIS2_PLACEMENT_3D('',#351,#352,#353);
#355=CIRCLE('',#354,1.097000000000000);
#356=EDGE_CURVE('',#350,#350,#355,.T.);
#357=ORIENTED_EDGE('',*,*,#356,.T.);
#358=EDGE_LOOP('',(#357));
#359=FACE_OUTER_BOUND('',#358,.T.);
#360=ORIENTED_EDGE('',*,*,#339,.F.);
#361=EDGE_LOOP('',(#360));
#362=FACE_BOUND('',#361,.T.);
#363=ADVANCED_FACE('',(#359,#362),#348,.T.);
#364=CARTESIAN_POINT('',(0.0,1.097500000000000,3.325000000000000));
#365=DIRECTION('',(0.0,0.0,-1.0));
#366=DIRECTION('',(-1.0,0.0,0.0));
#367=AXIS2_PLACEMENT_3D('',#364,#365,#366);
#368=PLANE('',#367);
#369=CARTESIAN_POINT('',(0.0,1.098000000000000,3.325000000000000));
#370=VERTEX_POINT('',#369);
#371=CARTESIAN_POINT('',(0.0,0.0,3.325000000000000));
#372=DIRECTION('',(0.0,0.0,-1.0));
#373=DIRECTION('',(0.0,-1.0,0.0));
#374=AXIS2_PLACEMENT_3D('',#371,#372,#373);
#375=CIRCLE('',#374,1.098000000000000);
#376=EDGE_CURVE('',#370,#370,#375,.T.);
#377=ORIENTED_EDGE('',*,*,#376,.F.);
#378=EDGE_LOOP('',(#377));
#379=FACE_OUTER_BOUND('',#378,.T.);
#380=ORIENTED_EDGE('',*,*,#356,.F.);
#381=EDGE_LOOP('',(#380));
#382=FACE_BOUND('',#381,.T.);
#383=ADVANCED_FACE('',(#379,#382),#368,.F.);
#384=CARTESIAN_POINT('',(0.0,0.0,2.900000000000000));
#385=DIRECTION('',(0.0,0.0,-1.0));
#386=DIRECTION('',(0.0,-1.0,0.0));
#387=AXIS2_PLACEMENT_3D('',#384,#385,#386);
#388=CYLINDRICAL_SURFACE('',#387,1.098000000000000);
#389=ORIENTED_EDGE('',*,*,#216,.T.);
#390=EDGE_LOOP('',(#389));
#391=FACE_OUTER_BOUND('',#390,.T.);
#392=ORIENTED_EDGE('',*,*,#376,.T.);
#393=EDGE_LOOP('',(#392));
#394=FACE_BOUND('',#393,.T.);
#395=ADVANCED_FACE('',(#391,#394),#388,.T.);
#396=CARTESIAN_POINT('',(0.0,1.097500000000000,4.0));
#397=DIRECTION('',(0.0,0.0,1.0));
#398=DIRECTION('',(1.0,0.0,0.0));
#399=AXIS2_PLACEMENT_3D('',#396,#397,#398);
#400=PLANE('',#399);
#401=CARTESIAN_POINT('',(0.0,1.098000000000000,4.0));
#402=VERTEX_POINT('',#401);
#403=CARTESIAN_POINT('',(0.0,0.0,4.0));
#404=DIRECTION('',(0.0,0.0,1.0));
#405=DIRECTION('',(0.0,-1.0,0.0));
#406=AXIS2_PLACEMENT_3D('',#403,#404,#405);
#407=CIRCLE('',#406,1.098000000000000);
#408=EDGE_CURVE('',#402,#402,#407,.T.);
#409=ORIENTED_EDGE('',*,*,#408,.F.);
#410=EDGE_LOOP('',(#409));
#411=FACE_OUTER_BOUND('',#410,.T.);
#412=CARTESIAN_POINT('',(0.0,1.097000000000000,4.0));
#413=VERTEX_POINT('',#412);
#414=CARTESIAN_POINT('',(0.0,0.0,4.0));
#415=DIRECTION('',(0.0,0.0,1.0));
#416=DIRECTION('',(0.0,1.0,0.0));
#417=AXIS2_PLACEMENT_3D('',#414,#415,#416);
#418=CIRCLE('',#417,1.097000000000000);
#419=EDGE_CURVE('',#413,#413,#418,.T.);
#420=ORIENTED_EDGE('',*,*,#419,.T.);
#421=EDGE_LOOP('',(#420));
#422=FACE_BOUND('',#421,.T.);
#423=ADVANCED_FACE('',(#411,#422),#400,.F.);
#424=CARTESIAN_POINT('',(0.0,0.0,3.912500000000000));
#425=DIRECTION('',(0.0,0.0,1.0));
#426=DIRECTION('',(0.0,1.0,0.0));
#427=AXIS2_PLACEMENT_3D('',#424,#425,#426);
#428=CYLINDRICAL_SURFACE('',#427,1.097000000000000);
#429=CARTESIAN_POINT('',(0.0,1.097000000000000,3.825000000000000));
#430=VERTEX_POINT('',#429);
#431=CARTESIAN_POINT('',(0.0,0.0,3.825000000000000));
#432=DIRECTION('',(0.0,0.0,1.0));
#433=DIRECTION('',(0.0,1.0,0.0));
#434=AXIS2_PLACEMENT_3D('',#431,#432,#433);
#435=CIRCLE('',#434,1.097000000000000);
#436=EDGE_CURVE('',#430,#430,#435,.T.);
#437=ORIENTED_EDGE('',*,*,#436,.T.);
#438=EDGE_LOOP('',(#437));
#439=FACE_OUTER_BOUND('',#438,.T.);
#440=ORIENTED_EDGE('',*,*,#419,.F.);
#441=EDGE_LOOP('',(#440));
#442=FACE_BOUND('',#441,.T.);
#443=ADVANCED_FACE('',(#439,#442),#428,.T.);
#444=CARTESIAN_POINT('',(0.0,1.097500000000000,3.825000000000000));
#445=DIRECTION('',(0.0,0.0,-1.0));
#446=DIRECTION('',(-1.0,0.0,0.0));
#447=AXIS2_PLACEMENT_3D('',#444,#445,#446);
#448=PLANE('',#447);
#449=CARTESIAN_POINT('',(0.0,1.098000000000000,3.825000000000000));
#450=VERTEX_POINT('',#449);
#451=CARTESIAN_POINT('',(0.0,0.0,3.825000000000000));
#452=DIRECTION('',(0.0,0.0,-1.0));
#453=DIRECTION('',(0.0,-1.0,0.0));
#454=AXIS2_PLACEMENT_3D('',#451,#452,#453);
#455=CIRCLE('',#454,1.098000000000000);
#456=EDGE_CURVE('',#450,#450,#455,.T.);
#457=ORIENTED_EDGE('',*,*,#456,.F.);
#458=EDGE_LOOP('',(#457));
#459=FACE_OUTER_BOUND('',#458,.T.);
#460=ORIENTED_EDGE('',*,*,#436,.F.);
#461=EDGE_LOOP('',(#460));
#462=FACE_BOUND('',#461,.T.);
#463=ADVANCED_FACE('',(#459,#462),#448,.F.);
#464=CARTESIAN_POINT('',(0.0,0.0,2.900000000000000));
#465=DIRECTION('',(0.0,0.0,-1.0));
#466=DIRECTION('',(0.0,-1.0,0.0));
#467=AXIS2_PLACEMENT_3D('',#464,#465,#466);
#468=CYLINDRICAL_SURFACE('',#467,1.098000000000000);
#469=ORIENTED_EDGE('',*,*,#328,.T.);
#470=EDGE_LOOP('',(#469));
#471=FACE_OUTER_BOUND('',#470,.T.);
#472=ORIENTED_EDGE('',*,*,#456,.T.);
#473=EDGE_LOOP('',(#472));
#474=FACE_BOUND('',#473,.T.);
#475=ADVANCED_FACE('',(#471,#474),#468,.T.);
#476=CARTESIAN_POINT('',(0.0,-1.099000000000000,1.300000000000000));
#477=DIRECTION('',(0.0,0.0,-1.0));
#478=DIRECTION('',(-1.0,0.0,0.0));
#479=AXIS2_PLACEMENT_3D('',#476,#477,#478);
#480=PLANE('',#479);
#481=CARTESIAN_POINT('',(0.0,-1.100000000000000,1.300000000000000));
#482=VERTEX_POINT('',#481);
#483=CARTESIAN_POINT('',(0.0,0.0,1.300000000000000));
#484=DIRECTION('',(0.0,0.0,-1.0));
#485=DIRECTION('',(-1.0,0.0,0.0));
#486=AXIS2_PLACEMENT_3D('',#483,#484,#485);
#487=CIRCLE('',#486,1.100000000000000);
#488=EDGE_CURVE('',#482,#482,#487,.T.);
#489=ORIENTED_EDGE('',*,*,#488,.F.);
#490=EDGE_LOOP('',(#489));
#491=FACE_OUTER_BOUND('',#490,.T.);
#492=ORIENTED_EDGE('',*,*,#308,.T.);
#493=EDGE_LOOP('',(#492));
#494=FACE_BOUND('',#493,.T.);
#495=ADVANCED_FACE('',(#491,#494),#480,.F.);
#496=CARTESIAN_POINT('',(0.0,0.0,2.900000000000000));
#497=DIRECTION('',(0.0,0.0,-1.0));
#498=DIRECTION('',(0.0,-1.0,0.0));
#499=AXIS2_PLACEMENT_3D('',#496,#497,#498);
#500=CYLINDRICAL_SURFACE('',#499,1.098000000000000);
#501=ORIENTED_EDGE('',*,*,#408,.T.);
#502=EDGE_LOOP('',(#501));
#503=FACE_OUTER_BOUND('',#502,.T.);
#504=CARTESIAN_POINT('',(0.0,-1.098000000000000,4.500000000000000));
#505=VERTEX_POINT('',#504);
#506=CARTESIAN_POINT('',(0.0,0.0,4.500000000000000));
#507=DIRECTION('',(0.0,0.0,-1.0));
#508=DIRECTION('',(0.0,-1.0,0.0));
#509=AXIS2_PLACEMENT_3D('',#506,#507,#508);
#510=CIRCLE('',#509,1.098000000000000);
#511=EDGE_CURVE('',#505,#505,#510,.T.);
#512=ORIENTED_EDGE('',*,*,#511,.T.);
#513=EDGE_LOOP('',(#512));
#514=FACE_BOUND('',#513,.T.);
#515=ADVANCED_FACE('',(#503,#514),#500,.T.);
#516=CARTESIAN_POINT('',(0.0,-1.099000000000000,4.500000000000000));
#517=DIRECTION('',(0.0,0.0,1.0));
#518=DIRECTION('',(1.0,0.0,0.0));
#519=AXIS2_PLACEMENT_3D('',#516,#517,#518);
#520=PLANE('',#519);
#521=CARTESIAN_POINT('',(0.0,-1.100000000000000,4.500000000000000));
#522=VERTEX_POINT('',#521);
#523=CARTESIAN_POINT('',(0.0,0.0,4.500000000000000));
#524=DIRECTION('',(0.0,0.0,1.0));
#525=DIRECTION('',(-1.0,0.0,0.0));
#526=AXIS2_PLACEMENT_3D('',#523,#524,#525);
#527=CIRCLE('',#526,1.100000000000000);
#528=EDGE_CURVE('',#522,#522,#527,.T.);
#529=ORIENTED_EDGE('',*,*,#528,.F.);
#530=EDGE_LOOP('',(#529));
#531=FACE_OUTER_BOUND('',#530,.T.);
#532=ORIENTED_EDGE('',*,*,#511,.F.);
#533=EDGE_LOOP('',(#532));
#534=FACE_BOUND('',#533,.T.);
#535=ADVANCED_FACE('',(#531,#534),#520,.F.);
#536=CARTESIAN_POINT('',(0.0,0.0,0.0));
#537=DIRECTION('',(0.0,0.0,1.0));
#538=DIRECTION('',(-1.0,0.0,0.0));
#539=AXIS2_PLACEMENT_3D('',#536,#537,#538);
#540=CYLINDRICAL_SURFACE('',#539,1.100000000000000);
#541=CARTESIAN_POINT('',(1.100000000000000,1.347111E-016,5.600000000000000));
#542=VERTEX_POINT('',#541);
#543=CARTESIAN_POINT('',(0.0,0.0,5.600000000000000));
#544=DIRECTION('',(0.0,0.0,1.0));
#545=DIRECTION('',(-1.0,0.0,0.0));
#546=AXIS2_PLACEMENT_3D('',#543,#544,#545);
#547=CIRCLE('',#546,1.100000000000000);
#548=EDGE_CURVE('',#542,#542,#547,.T.);
#549=ORIENTED_EDGE('',*,*,#548,.F.);
#550=EDGE_LOOP('',(#549));
#551=FACE_OUTER_BOUND('',#550,.T.);
#552=ORIENTED_EDGE('',*,*,#528,.T.);
#553=EDGE_LOOP('',(#552));
#554=FACE_BOUND('',#553,.T.);
#555=ADVANCED_FACE('',(#551,#554),#540,.T.);
#556=CARTESIAN_POINT('',(0.0,0.0,0.200000000000000));
#557=DIRECTION('',(0.0,0.0,-1.0));
#558=DIRECTION('',(-1.0,0.0,0.0));
#559=AXIS2_PLACEMENT_3D('',#556,#557,#558);
#560=TOROIDAL_SURFACE('',#559,0.900000000000000,0.200000000000000);
#561=CARTESIAN_POINT('',(1.100000000000000,-1.347111E-016,0.200000000000000));
#562=VERTEX_POINT('',#561);
#563=CARTESIAN_POINT('',(0.0,0.0,0.200000000000000));
#564=DIRECTION('',(0.0,0.0,-1.0));
#565=DIRECTION('',(-1.0,0.0,0.0));
#566=AXIS2_PLACEMENT_3D('',#563,#564,#565);
#567=CIRCLE('',#566,1.100000000000000);
#568=EDGE_CURVE('',#562,#562,#567,.T.);
#569=ORIENTED_EDGE('',*,*,#568,.T.);
#570=EDGE_LOOP('',(#569));
#571=FACE_OUTER_BOUND('',#570,.T.);
#572=CARTESIAN_POINT('',(0.900000000000000,1.102182E-016,0.0));
#573=VERTEX_POINT('',#572);
#574=CARTESIAN_POINT('',(0.0,0.0,0.0));
#575=DIRECTION('',(0.0,0.0,1.0));
#576=DIRECTION('',(-1.0,0.0,0.0));
#577=AXIS2_PLACEMENT_3D('',#574,#575,#576);
#578=CIRCLE('',#577,0.900000000000000);
#579=EDGE_CURVE('',#573,#573,#578,.T.);
#580=ORIENTED_EDGE('',*,*,#579,.T.);
#581=EDGE_LOOP('',(#580));
#582=FACE_BOUND('',#581,.T.);
#583=ADVANCED_FACE('',(#571,#582),#560,.T.);
#584=CARTESIAN_POINT('',(0.0,0.0,0.0));
#585=DIRECTION('',(0.0,0.0,1.0));
#586=DIRECTION('',(-1.0,0.0,0.0));
#587=AXIS2_PLACEMENT_3D('',#584,#585,#586);
#588=CYLINDRICAL_SURFACE('',#587,1.100000000000000);
#589=ORIENTED_EDGE('',*,*,#488,.T.);
#590=EDGE_LOOP('',(#589));
#591=FACE_OUTER_BOUND('',#590,.T.);
#592=ORIENTED_EDGE('',*,*,#568,.F.);
#593=EDGE_LOOP('',(#592));
#594=FACE_BOUND('',#593,.T.);
#595=ADVANCED_FACE('',(#591,#594),#588,.T.);
#596=CARTESIAN_POINT('',(0.0,0.0,0.0));
#597=DIRECTION('',(0.0,0.0,-1.0));
#598=DIRECTION('',(-1.0,0.0,0.0));
#599=AXIS2_PLACEMENT_3D('',#596,#597,#598);
#600=PLANE('',#599);
#601=ORIENTED_EDGE('',*,*,#579,.F.);
#602=EDGE_LOOP('',(#601));
#603=FACE_OUTER_BOUND('',#602,.T.);
#604=ADVANCED_FACE('',(#603),#600,.T.);
#605=CARTESIAN_POINT('',(0.0,0.0,5.600000000000000));
#606=DIRECTION('',(0.0,0.0,-1.0));
#607=DIRECTION('',(-1.0,0.0,0.0));
#608=AXIS2_PLACEMENT_3D('',#605,#606,#607);
#609=TOROIDAL_SURFACE('',#608,0.900000000000000,0.200000000000000);
#610=CARTESIAN_POINT('',(0.900000000000000,-1.102182E-016,5.800000000000000));
#611=VERTEX_POINT('',#610);
#612=CARTESIAN_POINT('',(0.0,0.0,5.800000000000000));
#613=DIRECTION('',(0.0,0.0,-1.0));
#614=DIRECTION('',(-1.0,0.0,0.0));
#615=AXIS2_PLACEMENT_3D('',#612,#613,#614);
#616=CIRCLE('',#615,0.900000000000000);
#617=EDGE_CURVE('',#611,#611,#616,.T.);
#618=ORIENTED_EDGE('',*,*,#617,.T.);
#619=EDGE_LOOP('',(#618));
#620=FACE_OUTER_BOUND('',#619,.T.);
#621=ORIENTED_EDGE('',*,*,#548,.T.);
#622=EDGE_LOOP('',(#621));
#623=FACE_BOUND('',#622,.T.);
#624=ADVANCED_FACE('',(#620,#623),#609,.T.);
#625=CARTESIAN_POINT('',(0.0,0.0,5.800000000000000));
#626=DIRECTION('',(0.0,0.0,-1.0));
#627=DIRECTION('',(-1.0,0.0,0.0));
#628=AXIS2_PLACEMENT_3D('',#625,#626,#627);
#629=PLANE('',#628);
#630=ORIENTED_EDGE('',*,*,#617,.F.);
#631=EDGE_LOOP('',(#630));
#632=FACE_OUTER_BOUND('',#631,.T.);
#633=ADVANCED_FACE('',(#632),#629,.F.);
#634=CLOSED_SHELL('',(#95,#115,#135,#163,#183,#203,#231,#251,#271,#283,#295,#315,#343,#363,#383,#395,#423,#443,#463,#475,#495,#515,#535,#555,#583,#595,#604,#624,#633));
#635=MANIFOLD_SOLID_BREP('Volumenk\S\vrper1',#634);
#636=COLOUR_RGB('',0.713725984096527,0.427451014518738,0.180391997098923);
#637=FILL_AREA_STYLE_COLOUR('',#636);
#638=FILL_AREA_STYLE('',(#637));
#639=SURFACE_STYLE_FILL_AREA(#638);
#640=SURFACE_SIDE_STYLE('',(#639));
#641=SURFACE_STYLE_USAGE(.BOTH.,#640);
#642=PRESENTATION_STYLE_ASSIGNMENT((#641));
#643=STYLED_ITEM('',(#642),#115);
#644=COLOUR_RGB('',0.831372559070587,0.811764717102051,0.0);
#645=FILL_AREA_STYLE_COLOUR('',#644);
#646=FILL_AREA_STYLE('',(#645));
#647=SURFACE_STYLE_FILL_AREA(#646);
#648=SURFACE_SIDE_STYLE('',(#647));
#649=SURFACE_STYLE_USAGE(.BOTH.,#648);
#650=PRESENTATION_STYLE_ASSIGNMENT((#649));
#651=STYLED_ITEM('',(#650),#183);
#652=COLOUR_RGB('',0.066666670143604,0.756862759590149,0.329411774873734);
#653=FILL_AREA_STYLE_COLOUR('',#652);
#654=FILL_AREA_STYLE('',(#653));
#655=SURFACE_STYLE_FILL_AREA(#654);
#656=SURFACE_SIDE_STYLE('',(#655));
#657=SURFACE_STYLE_USAGE(.BOTH.,#656);
#658=PRESENTATION_STYLE_ASSIGNMENT((#657));
#659=STYLED_ITEM('',(#658),#251);
#660=COLOUR_RGB('',0.003921568859369,0.211764708161354,0.819607853889465);
#661=FILL_AREA_STYLE_COLOUR('',#660);
#662=FILL_AREA_STYLE('',(#661));
#663=SURFACE_STYLE_FILL_AREA(#662);
#664=SURFACE_SIDE_STYLE('',(#663));
#665=SURFACE_STYLE_USAGE(.BOTH.,#664);
#666=PRESENTATION_STYLE_ASSIGNMENT((#665));
#667=STYLED_ITEM('',(#666),#363);
#668=COLOUR_RGB('',0.831372559070587,0.0,0.0);
#669=FILL_AREA_STYLE_COLOUR('',#668);
#670=FILL_AREA_STYLE('',(#669));
#671=SURFACE_STYLE_FILL_AREA(#670);
#672=SURFACE_SIDE_STYLE('',(#671));
#673=SURFACE_STYLE_USAGE(.BOTH.,#672);
#674=PRESENTATION_STYLE_ASSIGNMENT((#673));
#675=STYLED_ITEM('',(#674),#443);
#676=COLOUR_RGB('',0.501960992813110,0.501960992813110,0.501960992813110);
#677=FILL_AREA_STYLE_COLOUR('',#676);
#678=FILL_AREA_STYLE('',(#677));
#679=SURFACE_STYLE_FILL_AREA(#678);
#680=SURFACE_SIDE_STYLE('',(#679));
#681=SURFACE_STYLE_USAGE(.BOTH.,#680);
#682=PRESENTATION_STYLE_ASSIGNMENT((#681));
#683=STYLED_ITEM('',(#682),#555);
#684=STYLED_ITEM('',(#682),#583);
#685=STYLED_ITEM('',(#682),#595);
#686=STYLED_ITEM('',(#682),#604);
#687=STYLED_ITEM('',(#682),#624);
#688=STYLED_ITEM('',(#682),#633);
#689=MECHANICAL_DESIGN_GEOMETRIC_PRESENTATION_REPRESENTATION('',(#643,#651,#659,#667,#675,#683,#684,#685,#686,#687,#688,#697),#67);
#690=COLOUR_RGB('Standard',0.752941191196442,0.752941191196442,0.752941191196442);
#691=FILL_AREA_STYLE_COLOUR('Standard',#690);
#692=FILL_AREA_STYLE('Standard',(#691));
#693=SURFACE_STYLE_FILL_AREA(#692);
#694=SURFACE_SIDE_STYLE('Standard',(#693));
#695=SURFACE_STYLE_USAGE(.BOTH.,#694);
#696=PRESENTATION_STYLE_ASSIGNMENT((#695));
#697=STYLED_ITEM('',(#696),#635);
#698=ADVANCED_BREP_SHAPE_REPRESENTATION('ABSR',(#635),#36);
#699=SHAPE_REPRESENTATION_RELATIONSHIP('SRR','None',#698,#41);
ENDSEC;
END-ISO-10303-21;
