ISO-10303-21;
HEADER;
/* Generated by software containing ST-Developer
 * from STEP Tools, Inc. (www.steptools.com) 
 */

FILE_DESCRIPTION(
/* description */ ('Professional Metal Film Leaded Resistor'),
/* implementation_level */ '2;1');

FILE_NAME(
/* name */ 
'\\\\WSSE03\\home\\klepschi\\Desktop\\Elektrowerkstatt - T23 - T21\\In
ventor - AutoCAD\\Indien - Nirbhay Gopal\\MBA - SMA 0204\\MBA  SMA 020
4 - MBA0204VCXXXXFCT00.stp',
/* time_stamp */ '2017-06-23T08:54:15+02:00',
/* author */ ('klepschi'),
/* organization */ (''),
/* preprocessor_version */ 'ST-DEVELOPER v15.6',
/* originating_system */ 'Autodesk Inventor 2015',
/* authorisation */ '');

FILE_SCHEMA (('AUTOMOTIVE_DESIGN { 1 0 10303 214 3 1 1 }'));
ENDSEC;

DATA;
#10=MECHANICAL_DESIGN_GEOMETRIC_PRESENTATION_REPRESENTATION('',(#15,#19,
#16,#21,#20,#17,#14,#18),#236);
#11=SHAPE_REPRESENTATION_RELATIONSHIP('SRR','None',#245,#12);
#12=ADVANCED_BREP_SHAPE_REPRESENTATION($,(#13),#235);
#13=MANIFOLD_SOLID_BREP('Volumenk\X\F6rper1',#134);
#14=STYLED_ITEM('',(#255),#127);
#15=STYLED_ITEM('',(#255),#128);
#16=STYLED_ITEM('',(#255),#129);
#17=STYLED_ITEM('',(#255),#130);
#18=STYLED_ITEM('',(#255),#131);
#19=STYLED_ITEM('',(#255),#132);
#20=STYLED_ITEM('',(#255),#133);
#21=STYLED_ITEM('',(#254),#13);
#22=PLANE('',#139);
#23=PLANE('',#140);
#24=PLANE('',#144);
#25=PLANE('',#148);
#26=PLANE('',#152);
#27=PLANE('',#156);
#28=FACE_BOUND('',#49,.T.);
#29=FACE_BOUND('',#53,.T.);
#30=FACE_BOUND('',#55,.T.);
#31=FACE_BOUND('',#57,.T.);
#32=FACE_BOUND('',#59,.T.);
#33=FACE_BOUND('',#61,.T.);
#34=FACE_BOUND('',#63,.T.);
#35=FACE_BOUND('',#65,.T.);
#36=FACE_BOUND('',#67,.T.);
#37=FACE_OUTER_BOUND('',#48,.T.);
#38=FACE_OUTER_BOUND('',#50,.T.);
#39=FACE_OUTER_BOUND('',#51,.T.);
#40=FACE_OUTER_BOUND('',#52,.T.);
#41=FACE_OUTER_BOUND('',#54,.T.);
#42=FACE_OUTER_BOUND('',#56,.T.);
#43=FACE_OUTER_BOUND('',#58,.T.);
#44=FACE_OUTER_BOUND('',#60,.T.);
#45=FACE_OUTER_BOUND('',#62,.T.);
#46=FACE_OUTER_BOUND('',#64,.T.);
#47=FACE_OUTER_BOUND('',#66,.T.);
#48=EDGE_LOOP('',(#98));
#49=EDGE_LOOP('',(#99));
#50=EDGE_LOOP('',(#100));
#51=EDGE_LOOP('',(#101));
#52=EDGE_LOOP('',(#102));
#53=EDGE_LOOP('',(#103));
#54=EDGE_LOOP('',(#104));
#55=EDGE_LOOP('',(#105));
#56=EDGE_LOOP('',(#106));
#57=EDGE_LOOP('',(#107));
#58=EDGE_LOOP('',(#108));
#59=EDGE_LOOP('',(#109));
#60=EDGE_LOOP('',(#110));
#61=EDGE_LOOP('',(#111));
#62=EDGE_LOOP('',(#112));
#63=EDGE_LOOP('',(#113));
#64=EDGE_LOOP('',(#114));
#65=EDGE_LOOP('',(#115));
#66=EDGE_LOOP('',(#116));
#67=EDGE_LOOP('',(#117));
#68=CIRCLE('',#137,0.250000000000019);
#69=CIRCLE('',#138,0.250000000000009);
#70=CIRCLE('',#141,0.250000000000006);
#71=CIRCLE('',#143,0.250000000000009);
#72=CIRCLE('',#145,0.80000000000001);
#73=CIRCLE('',#147,0.800000000000009);
#74=CIRCLE('',#149,0.700000000000009);
#75=CIRCLE('',#151,0.700000000000009);
#76=CIRCLE('',#153,0.800000000000009);
#77=CIRCLE('',#155,0.800000000000009);
#78=VERTEX_POINT('',#203);
#79=VERTEX_POINT('',#205);
#80=VERTEX_POINT('',#209);
#81=VERTEX_POINT('',#212);
#82=VERTEX_POINT('',#215);
#83=VERTEX_POINT('',#218);
#84=VERTEX_POINT('',#221);
#85=VERTEX_POINT('',#224);
#86=VERTEX_POINT('',#227);
#87=VERTEX_POINT('',#230);
#88=EDGE_CURVE('',#78,#78,#68,.T.);
#89=EDGE_CURVE('',#79,#79,#69,.T.);
#90=EDGE_CURVE('',#80,#80,#70,.T.);
#91=EDGE_CURVE('',#81,#81,#71,.T.);
#92=EDGE_CURVE('',#82,#82,#72,.T.);
#93=EDGE_CURVE('',#83,#83,#73,.T.);
#94=EDGE_CURVE('',#84,#84,#74,.T.);
#95=EDGE_CURVE('',#85,#85,#75,.T.);
#96=EDGE_CURVE('',#86,#86,#76,.T.);
#97=EDGE_CURVE('',#87,#87,#77,.T.);
#98=ORIENTED_EDGE('',*,*,#88,.F.);
#99=ORIENTED_EDGE('',*,*,#89,.T.);
#100=ORIENTED_EDGE('',*,*,#88,.T.);
#101=ORIENTED_EDGE('',*,*,#90,.F.);
#102=ORIENTED_EDGE('',*,*,#91,.F.);
#103=ORIENTED_EDGE('',*,*,#90,.T.);
#104=ORIENTED_EDGE('',*,*,#92,.F.);
#105=ORIENTED_EDGE('',*,*,#91,.T.);
#106=ORIENTED_EDGE('',*,*,#93,.F.);
#107=ORIENTED_EDGE('',*,*,#92,.T.);
#108=ORIENTED_EDGE('',*,*,#93,.T.);
#109=ORIENTED_EDGE('',*,*,#94,.F.);
#110=ORIENTED_EDGE('',*,*,#95,.F.);
#111=ORIENTED_EDGE('',*,*,#94,.T.);
#112=ORIENTED_EDGE('',*,*,#96,.F.);
#113=ORIENTED_EDGE('',*,*,#95,.T.);
#114=ORIENTED_EDGE('',*,*,#97,.F.);
#115=ORIENTED_EDGE('',*,*,#96,.T.);
#116=ORIENTED_EDGE('',*,*,#97,.T.);
#117=ORIENTED_EDGE('',*,*,#89,.F.);
#118=CYLINDRICAL_SURFACE('',#136,0.250000000000014);
#119=CYLINDRICAL_SURFACE('',#142,0.250000000000008);
#120=CYLINDRICAL_SURFACE('',#146,0.80000000000001);
#121=CYLINDRICAL_SURFACE('',#150,0.700000000000009);
#122=CYLINDRICAL_SURFACE('',#154,0.800000000000009);
#123=ADVANCED_FACE('',(#37,#28),#118,.T.);
#124=ADVANCED_FACE('',(#38),#22,.T.);
#125=ADVANCED_FACE('',(#39),#23,.T.);
#126=ADVANCED_FACE('',(#40,#29),#119,.T.);
#127=ADVANCED_FACE('',(#41,#30),#24,.T.);
#128=ADVANCED_FACE('',(#42,#31),#120,.T.);
#129=ADVANCED_FACE('',(#43,#32),#25,.T.);
#130=ADVANCED_FACE('',(#44,#33),#121,.T.);
#131=ADVANCED_FACE('',(#45,#34),#26,.T.);
#132=ADVANCED_FACE('',(#46,#35),#122,.T.);
#133=ADVANCED_FACE('',(#47,#36),#27,.T.);
#134=CLOSED_SHELL('',(#123,#124,#125,#126,#127,#128,#129,#130,#131,#132,
#133));
#135=AXIS2_PLACEMENT_3D('placement',#201,#157,#158);
#136=AXIS2_PLACEMENT_3D('',#202,#159,#160);
#137=AXIS2_PLACEMENT_3D('',#204,#161,#162);
#138=AXIS2_PLACEMENT_3D('',#206,#163,#164);
#139=AXIS2_PLACEMENT_3D('',#207,#165,#166);
#140=AXIS2_PLACEMENT_3D('',#208,#167,#168);
#141=AXIS2_PLACEMENT_3D('',#210,#169,#170);
#142=AXIS2_PLACEMENT_3D('',#211,#171,#172);
#143=AXIS2_PLACEMENT_3D('',#213,#173,#174);
#144=AXIS2_PLACEMENT_3D('',#214,#175,#176);
#145=AXIS2_PLACEMENT_3D('',#216,#177,#178);
#146=AXIS2_PLACEMENT_3D('',#217,#179,#180);
#147=AXIS2_PLACEMENT_3D('',#219,#181,#182);
#148=AXIS2_PLACEMENT_3D('',#220,#183,#184);
#149=AXIS2_PLACEMENT_3D('',#222,#185,#186);
#150=AXIS2_PLACEMENT_3D('',#223,#187,#188);
#151=AXIS2_PLACEMENT_3D('',#225,#189,#190);
#152=AXIS2_PLACEMENT_3D('',#226,#191,#192);
#153=AXIS2_PLACEMENT_3D('',#228,#193,#194);
#154=AXIS2_PLACEMENT_3D('',#229,#195,#196);
#155=AXIS2_PLACEMENT_3D('',#231,#197,#198);
#156=AXIS2_PLACEMENT_3D('',#232,#199,#200);
#157=DIRECTION('axis',(0.,0.,1.));
#158=DIRECTION('refdir',(1.,0.,0.));
#159=DIRECTION('center_axis',(-1.,0.,0.));
#160=DIRECTION('ref_axis',(0.,0.,1.));
#161=DIRECTION('center_axis',(-1.,0.,0.));
#162=DIRECTION('ref_axis',(0.,0.,1.));
#163=DIRECTION('center_axis',(-1.,0.,0.));
#164=DIRECTION('ref_axis',(0.,0.,1.));
#165=DIRECTION('center_axis',(-1.,0.,0.));
#166=DIRECTION('ref_axis',(0.,0.,1.));
#167=DIRECTION('center_axis',(1.,0.,0.));
#168=DIRECTION('ref_axis',(0.,0.,-1.));
#169=DIRECTION('center_axis',(-1.,0.,0.));
#170=DIRECTION('ref_axis',(0.,0.,1.));
#171=DIRECTION('center_axis',(-1.,0.,0.));
#172=DIRECTION('ref_axis',(0.,0.,1.));
#173=DIRECTION('center_axis',(-1.,0.,0.));
#174=DIRECTION('ref_axis',(0.,0.,1.));
#175=DIRECTION('center_axis',(1.,0.,0.));
#176=DIRECTION('ref_axis',(0.,0.,-1.));
#177=DIRECTION('center_axis',(-1.,0.,0.));
#178=DIRECTION('ref_axis',(0.,0.,1.));
#179=DIRECTION('center_axis',(-1.,0.,0.));
#180=DIRECTION('ref_axis',(0.,0.,1.));
#181=DIRECTION('center_axis',(-1.,0.,0.));
#182=DIRECTION('ref_axis',(0.,0.,1.));
#183=DIRECTION('center_axis',(-1.,0.,0.));
#184=DIRECTION('ref_axis',(0.,0.,1.));
#185=DIRECTION('center_axis',(-1.,0.,0.));
#186=DIRECTION('ref_axis',(0.,0.,1.));
#187=DIRECTION('center_axis',(-1.,0.,0.));
#188=DIRECTION('ref_axis',(0.,0.,1.));
#189=DIRECTION('center_axis',(-1.,0.,0.));
#190=DIRECTION('ref_axis',(0.,0.,1.));
#191=DIRECTION('center_axis',(1.,0.,0.));
#192=DIRECTION('ref_axis',(0.,0.,-1.));
#193=DIRECTION('center_axis',(-1.,0.,0.));
#194=DIRECTION('ref_axis',(0.,0.,1.));
#195=DIRECTION('center_axis',(-1.,0.,0.));
#196=DIRECTION('ref_axis',(0.,0.,1.));
#197=DIRECTION('center_axis',(-1.,0.,0.));
#198=DIRECTION('ref_axis',(0.,0.,1.));
#199=DIRECTION('center_axis',(-1.,0.,0.));
#200=DIRECTION('ref_axis',(0.,0.,1.));
#201=CARTESIAN_POINT('',(0.,0.,0.));
#202=CARTESIAN_POINT('Origin',(-16.3,0.,-9.43080089243391E-15));
#203=CARTESIAN_POINT('',(-30.8,0.,0.250000000000009));
#204=CARTESIAN_POINT('Origin',(-30.8,0.,-9.43080089243391E-15));
#205=CARTESIAN_POINT('',(-1.8,0.,0.25));
#206=CARTESIAN_POINT('Origin',(-1.8,0.,-9.43080089243391E-15));
#207=CARTESIAN_POINT('Origin',(-30.8,0.,-9.43689570931383E-15));
#208=CARTESIAN_POINT('Origin',(30.8,0.,0.249999999999996));
#209=CARTESIAN_POINT('',(30.8,0.,0.249999999999996));
#210=CARTESIAN_POINT('Origin',(30.8,0.,-9.43080089243391E-15));
#211=CARTESIAN_POINT('Origin',(16.3,0.,-9.43080089243391E-15));
#212=CARTESIAN_POINT('',(1.8,0.,0.25));
#213=CARTESIAN_POINT('Origin',(1.8,0.,-9.43080089243391E-15));
#214=CARTESIAN_POINT('Origin',(1.8,0.,0.800000000000001));
#215=CARTESIAN_POINT('',(1.8,0.,0.800000000000001));
#216=CARTESIAN_POINT('Origin',(1.8,0.,-9.43080089243391E-15));
#217=CARTESIAN_POINT('Origin',(1.4,0.,-9.43080089243391E-15));
#218=CARTESIAN_POINT('',(1.,0.,0.8));
#219=CARTESIAN_POINT('Origin',(1.,0.,-9.43080089243391E-15));
#220=CARTESIAN_POINT('Origin',(1.,0.,0.7));
#221=CARTESIAN_POINT('',(1.,0.,0.7));
#222=CARTESIAN_POINT('Origin',(1.,0.,-9.43080089243391E-15));
#223=CARTESIAN_POINT('Origin',(0.,0.,-9.43080089243391E-15));
#224=CARTESIAN_POINT('',(-1.,0.,0.7));
#225=CARTESIAN_POINT('Origin',(-1.,0.,-9.43080089243391E-15));
#226=CARTESIAN_POINT('Origin',(-1.,0.,0.8));
#227=CARTESIAN_POINT('',(-1.,0.,0.8));
#228=CARTESIAN_POINT('Origin',(-1.,0.,-9.43080089243391E-15));
#229=CARTESIAN_POINT('Origin',(-1.4,0.,-9.43080089243391E-15));
#230=CARTESIAN_POINT('',(-1.8,0.,0.8));
#231=CARTESIAN_POINT('Origin',(-1.8,0.,-9.43080089243391E-15));
#232=CARTESIAN_POINT('Origin',(-1.8,0.,0.25));
#233=UNCERTAINTY_MEASURE_WITH_UNIT(LENGTH_MEASURE(0.01),#237,
'DISTANCE_ACCURACY_VALUE',
'Maximum model space distance between geometric entities at asserted c
onnectivities');
#234=UNCERTAINTY_MEASURE_WITH_UNIT(LENGTH_MEASURE(1.E-6),#237,
'DISTANCE_ACCURACY_VALUE',
'Maximum model space distance between geometric entities at asserted c
onnectivities');
#235=(
GEOMETRIC_REPRESENTATION_CONTEXT(3)
GLOBAL_UNCERTAINTY_ASSIGNED_CONTEXT((#233))
GLOBAL_UNIT_ASSIGNED_CONTEXT((#237,#240,#238))
REPRESENTATION_CONTEXT('','3D')
);
#236=(
GEOMETRIC_REPRESENTATION_CONTEXT(3)
GLOBAL_UNCERTAINTY_ASSIGNED_CONTEXT((#234))
GLOBAL_UNIT_ASSIGNED_CONTEXT((#237,#240,#238))
REPRESENTATION_CONTEXT('','3D')
);
#237=(
LENGTH_UNIT()
NAMED_UNIT(*)
SI_UNIT(.MILLI.,.METRE.)
);
#238=(
NAMED_UNIT(*)
SI_UNIT($,.STERADIAN.)
SOLID_ANGLE_UNIT()
);
#239=DIMENSIONAL_EXPONENTS(0.,0.,0.,0.,0.,0.,0.);
#240=(
CONVERSION_BASED_UNIT('degree',#242)
NAMED_UNIT(#239)
PLANE_ANGLE_UNIT()
);
#241=(
NAMED_UNIT(*)
PLANE_ANGLE_UNIT()
SI_UNIT($,.RADIAN.)
);
#242=PLANE_ANGLE_MEASURE_WITH_UNIT(PLANE_ANGLE_MEASURE(0.01745329252),#241);
#243=SHAPE_DEFINITION_REPRESENTATION(#244,#245);
#244=PRODUCT_DEFINITION_SHAPE('',$,#247);
#245=SHAPE_REPRESENTATION('',(#135),#235);
#246=PRODUCT_DEFINITION_CONTEXT('part definition',#251,'design');
#247=PRODUCT_DEFINITION('MBA  SMA 0204 - MBA0204VCXXXXFCT00',
'MBA  SMA 0204 - MBA0204VCXXXXFCT00',#248,#246);
#248=PRODUCT_DEFINITION_FORMATION('',$,#253);
#249=PRODUCT_RELATED_PRODUCT_CATEGORY(
'MBA  SMA 0204 - MBA0204VCXXXXFCT00',
'MBA  SMA 0204 - MBA0204VCXXXXFCT00',(#253));
#250=APPLICATION_PROTOCOL_DEFINITION('international standard',
'automotive_design',2009,#251);
#251=APPLICATION_CONTEXT(
'Core Data for Automotive Mechanical Design Process');
#252=PRODUCT_CONTEXT('part definition',#251,'mechanical');
#253=PRODUCT('MBA  SMA 0204 - MBA0204VCXXXXFCT00',
'MBA  SMA 0204 - MBA0204VCXXXXFCT00',$,(#252));
#254=PRESENTATION_STYLE_ASSIGNMENT((#256));
#255=PRESENTATION_STYLE_ASSIGNMENT((#257));
#256=SURFACE_STYLE_USAGE(.BOTH.,#258);
#257=SURFACE_STYLE_USAGE(.BOTH.,#259);
#258=SURFACE_SIDE_STYLE($,(#260));
#259=SURFACE_SIDE_STYLE($,(#261));
#260=SURFACE_STYLE_FILL_AREA(#262);
#261=SURFACE_STYLE_FILL_AREA(#263);
#262=FILL_AREA_STYLE($,(#264));
#263=FILL_AREA_STYLE($,(#265));
#264=FILL_AREA_STYLE_COLOUR($,#266);
#265=FILL_AREA_STYLE_COLOUR($,#267);
#266=COLOUR_RGB('',0.749019607843137,0.749019607843137,0.749019607843137);
#267=COLOUR_RGB('',0.188235294117647,0.529411764705882,0.890196078431373);
ENDSEC;
END-ISO-10303-21;
